Chord guitar Happy Now - Zedd - Navigasi Music -->
Lompat ke konten Lompat ke sidebar Lompat ke footer

Chord guitar Happy Now - Zedd

Kunci gitar ,chord,Chord gitar,dan,Lirik Lagu

Happy Now - Zedd


Here is the picking pattern: (For the Intro + First Chorus + Two Verses )
e|-------------------------|-----------------------------------------|
B|-----------3-----------3-|---------2------------2--------------2---|
G|------------------0------|-----------------------------------------|
D|-----2--------2----------------------------------------------------|
A|-------------------------|-----2-----------2--------------2--------|
E|-0-----------------------|-0-----------0--------------0------------|
  Em7 (Only use Em7 for     A
  this picking pattern,in
  other parts of the song
  you'll use Em)

e|-----------2-----------2-|-----------------------------------------|
B|-------------------------|---------0------------0--------------0---|
G|-------------------------|--------------------------------0--------|
D|-------------------------|-----0-----------------------------------|
A|-----2------------2------|-----------------0-----------------------|
E|-0------------0----------|-3-----------3--------------3------------|
  D                         G ( G chord used for this picking pattern is: 32XXXX )


[Intro]
Em7  A  D  G


[Chorus]
         Em     A
You're a world away
          D      G
Somewhere in the crowd
     Em      A
In a foreign place
        D     G
Are you happy now?
                Em      A
There's nothing left to say
     D       G
So I shut my mouth
             Em       A
So won't you tell me, babe
        D     G
Are you happy now?



[Verse 1]
Em                          A
You're the only one who can up and run
                 D                    G
Leave me just as empty as the day you came
    Em                              A
And you hold all the cards, all the broken hearts
                 D                         G
Strung over your shoulder till it's all in vain

[Pre-Chorus]
             Em                       A
And only you know the strength in your teeth
                D                          G
The wash in the weight of your pockets, so deep
Em  A        D   G 
     And lonely



[Chorus]
         Em     A
You're a world away
          D      G
Somewhere in the crowd
     Em      A
In a foreign place
        D     G
Are you happy now?
                Em      A
There's nothing left to say
     D       G
So I shut my mouth
             Em       A
So won't you tell me, babe
        D     G
Are you happy now?

[Post-Chorus]
Em   A    D      G                          Em   A    D      G
                You're the only one who can



[Verse 2]
Em
In the palm of your hands
        A
You can make me dance
                  D                           G
Spin me around in circles till I'm wrapped in string
    Em                              A
You keep on talking sweet till your fingers bleed
              D                    G
But don't you dare ask me how I've been

[Pre-Chorus]
             Em                       A
And only you know the strength in your teeth
                D                          G
The wash in the weight of your pockets, so deep
Em  A        D   G 
     And lonely



[Chorus]
         Em     A
You're a world away
          D      G
Somewhere in the crowd
     Em      A
In a foreign place
        D     G
Are you happy now?
                Em      A
There's nothing left to say
     D       G
So I shut my mouth
             Em       A
So won't you tell me, babe
        D     G
Are you happy now?

[Post-Chorus]
Em   A    D      G                         
                You're the only one who can
Em   A    D      G                         
                You're the only, you're the only
Em   A    D      G                       
                You're the only one who can
Em   A    D      G                       
                You're the only, you're the only

[Outro]
         Em     A
You're a world away
          D      G
Somewhere in the crowd
     Em      A
In a foreign place
        D     G
Are you happy now?
                Em      A
There's nothing left to say