Chord guitar Pit-A-Pat - Twice - Navigasi Music -->
Lompat ke konten Lompat ke sidebar Lompat ke footer

Chord guitar Pit-A-Pat - Twice

Kunci gitar , chord, Chord gitar, dan, Lirik Lagu, kord gitar

Pit-A-Pat - Twice

[Intro]
e|-------------------------|-----------------------------------|
B|-------------------------|-----------------------------------|
G|-------------------------|-----------------------------------| x1
D|-------------------------|-----------------------------------|
A|------------------0--2---|-----------------------------------|
E|--3--3--3--3----3--------|---0--0--0--0----0--2--3-----------|

[Verse 1]
Repeat this all the verse until the pre-chorus
  G                                      E
e|-------------------------------------|--------------------------------------------|
B|-------------------------------------|--------------------------------------------|
G|-------------------------------------|--------------------------------------------|
D|-------------------------------------|--------------------------------------------| x3
A|------------------------------0--2---|--------------------------------------------|
E|--3-3-3-3-3-3-3-3-3-3-3-3-3----------|--0-0-0-0-0-0-0-0-0-0-0-0-0---2--3----------|

G
Nae mami haru jongil pinky pinky hae
G
Nae bori sagwacheoreom bukkeubukkeu hae (woah)
E
Nappeuge junbihae hoksi nal bolkka bwa (woah)
E
Nae mameul deulkilkka bwa jogeum chojohae
G
Amudo boji moshage
G
Gamchwodun mami ganjireowoseo
E
(Woah) cham ige mwoya
E
(Woah) babo gata na

[Pre-chorus]
    C     C    B   A#   A          A    D
e|-------------------------------------------------------------------------|
B|-------------------------------------------------------------------------|
G|--9-----------------------------------7----------------------------------|
D|--10----10---9---8----7----------7----x----------------------------------|
A|--10----x----x---x----x----------x----5----------------------------------|
E|--8-----8----7---6----5----------5---------------------------------------|

C
Dagagabolkka
C             B          A#      A
Domanggabeorimyeon eotteokhae uwo
A
Geunyang a buteo z kkaji modu
D
Ah ah ah meoriga apa

(This part is played with palm mute)
 C5
Wae geurae wae geurae ireon naega aninde
 D5
Turn it up turn it up
 D5
Neul geuraessdeon geoscheoreom
 E5
Jasin issge neol butjapgo
 E5
Yaegihalgeoya

[Chorus]
 G5
Pit-a-pat pit-a-pat
                        A5
Teojildeushan simjangi baby
               C5
Neol bomyeon sumi makhyeo
                 G5
Help me help me baby
 G5
Pit-a-pat pit-a-pat
                        A5
Saranghae hanmadireul geonne
            C5
You wanna be my oh mine
        C5
Nae yeope isseojwo

[Verse 2]
(Play the first verse part)
G
Neol cheoeum bon sungan uisimeun 1do eopseo
G
Du nuni hateumoyangeuro hwak byeonhaesseo
E
Ppeonppeonhageman tuktuk naebaetneun maltu
E
Ttokgatji anha neon nae mameul ara neon
G
P I t a p a t
G
Neo ttaemae mari manhajin geot gata irony
E
Mildang gateun geon moshanikka jogeum ihaehae
E
Geunyang neoraseo joheunikka barabwajullae

[Pre-chorus]
e|-------------------------------------------------------------------------|
B|-------------------------------------------------------------------------|
G|--9-----------------------------------7----------------------------------|
D|--10----10---9---8----7----------7----x----------------------------------|
A|--10----x----x---x----x----------x----5----------------------------------|
E|--8-----8----7---6----5----------5---------------------------------------|


C
Dagagabolkka
C             B          A#      A
Domanggabeorimyeon eotteokhae uwo
A
Geunyang a buteo z kkaji modu
D
Ah ah ah meoriga apa

(This part is played with palm mute)

 C5
Wae geurae wae geurae ireon naega aninde
 D5
Turn it up turn it up
 D5
Neul geuraessdeon geoscheoreom
 E5
Jasin issge neol butjapgo
 E5
Yaegihalgeoya


[Chorus]
 G5
Pit-a-pat pit-a-pat
                        A5
Teojildeushan simjangi baby
               C5
Neol bomyeon sumi makhyeo
                 G5
Help me help me baby
 G5
Pit-a-pat pit-a-pat
                        A5
Saranghae hanmadireul geonne
            C5
You wanna be my oh mine
        C5
Nae yeope isseojwo

[Bridge]
G
Nareul bomyeo usjima
F#m7
Gwissokmaldo hajima
Bm
Sesangi da deutgesseo
Csus2
Nae kungkwangdaeneun simjangsorireul
G
Nan maeil niga singyeong sseuyeo
F#m7
Geunyang geujeo niga bogo sipeo
Bm
Amu maldo malgo mureoboji malgo
N.C.
Geunyang waseo nal anajwo

[Final Chorus]
 G5
Pit-a-pat pit-a-pat
                        A5
Teojildeushan simjangi baby
               C5
Neol bomyeon sumi makhyeo
                 G5
Help me help me baby
 G5
Pit-a-pat pit-a-pat
                        A5
Saranghae hanmadireul geonne
            C5
You wanna be my oh mine
        C5
Nae yeope isseojwo