Chord Guitar Self-Sabotage - Waterparks - Navigasi Music a -->
Skip to content Skip to sidebar Skip to footer

Chord Guitar Self-Sabotage - Waterparks

Navigasi music - Gitarkid , 弦 ,chordmudah , simplechord , acorde, Kunci gitar , chord, Chord gitar, dan, Lirik Lagu, kord gitar, Akkord, navigasi.eu.org , akord, コード , 현 ,तार.

Kunci Gitar Self-Sabotage - Waterparks




Kord Gitar Self-Sabotage - Waterparks



[Intro]
  E                   F#m              
e|------------------|------------------|
B|--------5---------|------------------|
G|------------------|--------9---------|
D|-----6------------|-----7------------|
A|--7---------------|--9---------------|
E|------------------|------------------|
 D                  A
------------------|------------------|
------------------|--9--5------------|
--------6---------|------------------|
-----7------------|--------7---------|
--5---------------|------------------|
------------------|------------------|

  E                   F#m              
e|------------------|------------------|
B|--------5---------|------------------|
G|------------------|--------9---------|
D|-----6------------|-----7------------|
A|--7---------------|--9---------------|
E|------------------|------------------|
 D
------------------|------------------|
--------5---------|------------------|
------------------|--7--6------------|
-----7------------|--------7---------|
--5---------------|------------------|
------------------|------------------|


[Pre-Chorus]
    F#      E          D
e|------------------|----------9-------|
B|------------------|----------7-------|
G|------------------|----------7-------|
D|-----7-------7----|-----7----7-------|
A|--9-------7-------|----------5-------|
E|------------------|--5-------5-------|


[Pre-Chorus 2]
                     D
e|--5--4--------9-------|---------------
B|--------7--5-----5--7-|---------------
G|----------------------|---------------
D|----------------------|---------------
A|----------------------|---------------
E|----------------------|---------------
-------|
-------|
-------|
-------|
-------|
-------|


[Verse 1]
E       F#m             D
When we talk, I'm never wrong
E               F#m                  
And if we don't fight, it won't last 
D
long
E            F#m         D
Might unplug my phone at night
E                F#m                  
When you need me most, I'll miss that 
D
flight


[Pre-Chorus 1]
     E         F#m          D          
It's avoidable, I'll destroy chances to 
A
be
E           F#m     D
Better than I was before you and me
   E            F#m               D    
Now we're at the part where you'll hate 
        A
what you see
N.C.                        D
What the fuck is wrong with me?


[Chorus]
E         F#m         D     
I'm on my way to you, but I 
    A
self-sabotage
E          F#m              D
So I might drive my car and crash into 
your garage, ooh
E       F#m           D         A
To get away from you, I'll self-sabotage
E           F#m                D
If you like when we talk, I'll dislocate
my jaw, ooh


[Post-Chorus]
E        F#m           D         A
What the fuck is wrong with me? (Yeah, 
yeah)
E        F#m           D
What the fuck is wrong with me? (Yеah, 
yeah)


[Verse 2]
E             F#m                D     A
I'll piss you off and ask what's wrong
E                 F#m      D
And your reason's not good enough, no, 
no
E      F#m             D   A
I want this to work so bad
E     F#m               D
But I want what I can't havе, no


[Pre-Chorus 2]
E              F#m           D        
Make plans and break them to see what 
   A
you say
E             F#m             D
And I'll be upset when you're mad for 
the day
      E          F#m        D         
'Cause you put on makeup and I'm still 
  A
in bed
N.C.                        D
What the fuck is wrong with me?


[Chorus]
E         F#m         D     
I'm on my way to you, but I 
    A
self-sabotage
E          F#m              D
So I might drive my car and crash into 
your garage, ooh
E       F#m           D         A
To get away from you, I'll self-sabotage
E           F#m                D
If you like when we talk, I'll dislocate
my jaw, ooh


[Post-Chorus]
E        F#m           D         A
What the fuck is wrong with me? (Yeah, 
yeah)
E        F#m           D
What the fuck is wrong with me? (Yеah, 
yeah)


[Chorus]
E         F#m         D     
I'm on my way to you, but I 
    A
self-sabotage
E          F#m              D
So I might drive my car and crash into 
your garage, ooh
E       F#m           D         A
To get away from you, I'll self-sabotage
E           F#m                N.C.
If you like when we talk, I'll dislocate
my jaw, ooh


[Post-Chorus]
E        F#m           D         A
What the fuck is wrong with me? (Yeah, 
yeah)
E        F#m           D
What the fuck is wrong with me? (Yеah, 
yeah)
E        F#m           D         A
What the fuck is wrong with me? (Yeah, 
yeah)
N.C.                        D
What the fuck is wrong with me?
close