Chord Guitar Where Is My Mind - Pixies - Navigasi Music a -->
Skip to content Skip to sidebar Skip to footer

Chord Guitar Where Is My Mind - Pixies

Navigasi music - Gitarkid , 弦 ,chordmudah , simplechord , acorde, Kunci gitar , chord, Chord gitar, dan, Lirik Lagu, kord gitar, Akkord, navigasi.eu.org , akord, コード , 현 ,तार.

Kunci Gitar Where Is My Mind - Pixies




Kord Gitar Where Is My Mind - Pixies



[Intro]
Ooh - Stop
E   C#m   G#   A   x2

  E                 C#m               
e|-----4-------4---|-----4-------4---|--
B|-5-------5-------|-5-------5-------|-4
G|-----------------|-----------------|--
D|-----------------|-----------------|--
A|-----------------|-----------------|--
E|-----------------|-----------------|--
G#                A
---4-------4---|-0---0---0---0---|
-------4-------|-5---5p4-5---5-0-|
---------------|-----------------|  x2
---------------|-----------------|
---------------|-----------------|
---------------|-----------------|

[Verse]
          E                        C#m 
With your feet in the air and your head
             G#  A
on the ground
E    C#m            G#       A
Try this trick and spin it, yeah
E                  C#m
Your head will collapse
            G#
But there's nothing in it
           A
And you'll ask yourself

[Chorus]
E            C#m
Where is my mind?
G#           A
Where is my mind?
    E       C#m   G#  A    E  C#m  G#  
Where is my mind?
A
E   G#         A             Am       
Way out in the water, see it swimming.
C#m   B

[Verse]
E                        C#m    G#  A
I was swimmin' in the Caribbean
E             C#m                  G#  A
   Animals were hiding behind the rock
E                    C#m
   Except the little fish
          G#
But they told me, he swears
           A
Tryin' to talk to me, coy koi

[Chorus]
E            C#m
Where is my mind?
G#           A
Where is my mind?
    E       C#m   G#  A    E  C#m  G#  
Where is my mind?
A
E   G#         A             Am       
Way out in the water, see it swimming.
C#m   B

[Solo]
e|-------------------------------|------
B|--7---7---7--7-----------------|------
G|--9b--9b--------9--7--7--7-----|--7--9
D|----------------------------9--|------
A|-------------------------------|------
E|-------------------------------|------
-------------------10--12--14b-|
--7--7/10--10--12--------------|
-------------------------------|
-------------------------------|
-------------------------------|
-------------------------------|

[Verse]
          E                        C#m 
With your feet in the air and your head
             G#  A
on the ground
E    C#m            G#       A
Try this trick and spin it, yeah
E                  C#m
Your head will collapse
            G#
But there's nothing in it
           A
And you'll ask yourself

[Chorus]
E            C#m
Where is my mind?
G#           A
Where is my mind?
    E       C#m   G#  A    E  C#m  G#  
Where is my mind?
A
E   G#         A             Am       
Way out in the water, see it swimming.
C#m   B

[Outro]
E  C#m  G#  A
E  C#m  G#  A
close