Chord Guitar 最後一堂課 Graduation - Eric Chou - Navigasi Music a -->
Skip to content Skip to sidebar Skip to footer

Chord Guitar 最後一堂課 Graduation - Eric Chou

Navigasi music - Gitarkid , 弦 ,chordmudah , simplechord , acorde, Kunci gitar , chord, Chord gitar, dan, Lirik Lagu, kord gitar, Akkord, navigasi.eu.org , akord, コード , 현 ,तार.

Kunci Gitar 最後一堂課 Graduation - Eric Chou




Kord Gitar 最後一堂課 Graduation - Eric Chou



[Intro]

   G
e|--------------------------------------
B|-----0-----0-----0-----0-----0-----0--
G|--------2-----------2-----------2-----
D|--------------------------------------
A|--------------------------------------
E|--3-----------3-----------3-----------
-|--------------------------------------
-|--3--0-----0-----0-----0-----0--------
-|--------2-----------2-----------2-----
-|--------------------------------------
-|--------------------------------------
-|--------------3-----------3-----------
-|
-|
-|
-|
-|
-|

                G (Strum)
e|--------------|3------------------|
B|-----0-----0--|3------------------|
G|--------2-----|0------------------|
D|--------------|0----0-------------|
A|--------------|2------------------|
E|--3-----------V3------------------|


[Verse 1]

    G        D
說真的 只能陪你走到這
   Em       Bm
當夕陽 餘暉灑落的此刻
   C        Bm        C         D
錯過的 想告訴你的 那些承諾呢 都成了自責


[Verse 2]

    G        D
最好的 我有沒有給你呢
   Em       Bm
凝望著 怕看漏你不說的
   C        Bm        C         D
緊握著 手心的溫熱 不得不選擇 輕輕放手了


[Chorus]

     G            D
這是最後的一刻 誰都要學的一課
     Em         Bm
我們曾那麼快樂 才讓分開多不捨
     C          Bm    Em
要去的海天一色 獨留你遠途跋涉
     C           D Dsus4 D
如果你哭了我會更捨不得

D    G            D
這是最後的一刻 也是最珍貴一課
     Em         Bm
只要能有你陪著 什麼都不重要了
     C           Bm    Em
最後的這一堂課 倒數的鐘聲響了
      C           D       G
趁世界 靜默之前我祈禱著 你能快樂


[Interlude 1]

   G                                   
e|--------------------------------------
B|-----0-----0-----0-----------0-----0--
G|--------2-----------2-----------2-----
D|--------------------------------------
A|--------------------------------------
E|--3-----------3-----------3-----------
   G (Strum)
-|--|3----------------------------------
-|--|3----------------------------------
-|--|0----------------------------------
-|--|0----0-----------------------------
-|--|2----------------------------------
-|--V3----------------------------------
-|
-|
-|
-|
-|
-|


[Verse 3]

    G        D
我還能 為你做些什麼呢
   Em       Bm
心疼你 總是逞強微笑著
  C        Bm        C         D Dsus4 
聽見你 喊我的名字 回憶的海濤 淹沒了眼角
D


[Chorus]

D    G            D
這是最後的一刻 也是最珍貴一課
     Em         Bm
只要能有你陪著 什麼都不重要了
     C           Bm    Em
最後的這一堂課 倒數的鐘聲響了
      C           D       G
趁世界 靜默之前我祈禱著 你能快樂


[Interlude 2]

G D C D C D G D


[Chorus]

D    G            D
這是最後的一刻 無法逃避的一課
     Em         Bm
好多話還沒說呢 卻與你永遠相隔
     C           Bm    Em
要去的海天一色 遙遠得彷彿銀河
      C           D Dsus4 D
原來最平凡的心願最難得


[Final Chorus]

D    G            D
這是最後的一刻 也是最珍貴一課
     Em         Bm
每一刻最難忘的 證明我們深愛著
     C           Bm    Em
最後的這一堂課 最後一定會懂得
      C            D Dsus4 G
被時間 抹滅的 早已經在我 心裡活著


[Outro]

   G                                   
e|--------------------------------------
B|-----0-----0--3--0-----0-----0-------0
G|--------2-----------2-----------2-----
D|--------------------------------------
A|--------------------------------------
E|--3-----------------------3-----------
   G (Strum)
-|----|3--------------------------------
-|----|0--------------------------------
-|----|0--------------------------------
-|----|0--------------------------------
-|----|2--------------------------------
-|----V3--------------------------------
-|
-|
-|
-|
-|
-|
close