Chord Guitar Strawberry Chainsaw - JAWNY - Navigasi Music a -->
Skip to content Skip to sidebar Skip to footer

Chord Guitar Strawberry Chainsaw - JAWNY

Navigasi music - Gitarkid , 弦 ,chordmudah , simplechord , acorde, Kunci gitar , chord, Chord gitar, dan, Lirik Lagu, kord gitar, Akkord, navigasi.eu.org , akord, コード , 현 ,तार.

Kunci Gitar Strawberry Chainsaw - JAWNY




Kord Gitar Strawberry Chainsaw - JAWNY



[Chorus]
   Bb                      C           
e|--------------------------------------
B|--3-----3--------3--3-----5-----5-----
G|--------------------------------------
D|--------------------------------------
A|--1-----1--------1--1-----3-----3-----
E|--------------------------------------
              Am                      
------------|---------------------------
---5--5-----|--1-----1--------1--1-----6
------------|---------------------------
------------|---------------------------
---3--3-----|--0-----0--------0--0-----5
------------|---------------------------
Dm
-----------------------|
-----6--------6--6-----|
-----------------------|
-----------------------|
-----5--------5--5-----|
-----------------------|

   Bb                      C           
e|--------------------------------------
B|--3-----3--------3--3-----5-----5-----
G|--------------------------------------
D|--------------------------------------
A|--1-----1--------1--1-----3-----3-----
E|--------------------------------------
              Am                      
------------|---------------------------
---5--5-----|--1-----1--------1--1-----6
------------|---------------------------
------------|---------------------------
---3--3-----|--0-----0--------0--0-----5
------------|---------------------------
Dm
-----------------------|
-----6--------6--6-----|
-----------------------|
-----------------------|
-----5--------5--5-----|
-----------------------|

   Bb                      C           
e|--------------------------------------
B|--3-----3--------3--3-----5-----5-----
G|--------------------------------------
D|--------------------------------------
A|--1-----1--------1--1-----3-----3-----
E|--------------------------------------
              Am
------------|---------------------------
---5--5-----|--1-----1--------1--1------
------------|---------------------------
------------|---------------------------
---3--3-----|--0-----0--------0--0------
------------|--------------------------5
-----------------------|
-----------------------|
-----------------------|
-----------------------|
-----------------------|
-----3-----1-----0-----|

   Bb                                  
e|--------------------------------------
B|--3-----3--------3--3-----3-----3-----
G|--------------------------------------
D|--------------------------------------
A|--1-----1--------1--1-----1-----1-----
E|--------------------------------------
              Bbm                     
------------|---------------------------
---3--3-----|--2-----2--------2--2-----6
------------|---------------------------
------------|---------------------------
---1--1-----|--1-----1--------1--1-----4
------------|---------------------------
Db          Eb
-----------------------|
-----------8-----------|
-----------------------|
-----------------------|
-----------6-----------|
-----------------------|



[Verse]
F
No space big enough for how I feel
F
I'd show you with my hands if I could 
deal
        Gm       C         Am          
'Cause I love you more than I could love
  Bb
myself
F
Mama said don't fall in love again
F
She remembers all that I forget
       Gm     C       Am           
Yeah, I try so hard, I can't outrun 
 Bb    Bbm
myself, oh


[Chorus]
Bb         C                   Am
Strawberry chainsaw you're the treat
              Dm                    
One day you're harsh and then you're 
Bb
sweet
            C                     Am
And that's okay, that's fine with me
        Dm            Bb            
No woman ever could compete it, best 
C
believe it
        Am                           
They can try but I don't want someone 
Bb
else
           Bbm       Db   Eb         F
'Cause I'm more than sure you're the one


[Verse]
F
No place big enough for how I feel
F
My worse fear is the one that you're not
near
        Gm       C         Am          
'Cause I love you more than I could love
Bb
myself
F
Mama said don't fall in love again
F
She remembers all that I forget
       Gm     C       Am           
Yeah, I try so hard, I can't outrun 
 Bb    Bbm
myself, oh


[Chorus]
Bb         C                   Am
Strawberry chainsaw you're the treat
              Dm                    
One day you're harsh and then you're 
Bb
sweet
            C                     Am
And that's okay, that's fine with me
        Dm            Bb            
No woman ever could compete it, best 
C
believe it
        Am                           
They can try but I don't want someone 
Bb
else
          Bbm       Db   Eb         Bb 
'Cause I'm more than sure you're the one
Am


[Bridge]
          Gm                        Bb 
'Cause I'm more than sure you're the one
Am
          Gm                        Bb 
'Cause I'm more than sure you're the one
Am
          Gm                        C  
'Cause I'm more than sure you're the one
N.C.


[Chorus]
Bb         C                   Am
Strawberry chainsaw you're the treat
              Dm                    
One day you're harsh and then you're 
Bb
sweet
            C                     Am
And that's okay, that's fine with me
        Dm            Bb            
No woman ever could compete it, best 
C
believe it
        Am                           
They can try but I don't want someone 
Bb
else
          Bbm       Db   Eb         
'Cause I'm more than sure you're the one
N.C.
close