Chord Guitar Here With Me - d4vd - Navigasi Music a -->
Skip to content Skip to sidebar Skip to footer

Chord Guitar Here With Me - d4vd

Navigasi music - Gitarkid , 弦 ,chordmudah , simplechord , acorde, Kunci gitar , chord, Chord gitar, dan, Lirik Lagu, kord gitar, Akkord, navigasi.eu.org , akord, コード , 현 ,तार.

Kunci Gitar Here With Me - d4vd




Kord Gitar Here With Me - d4vd

[Intro]
E G#7 C#m Bm7 Amaj7 G#7 F#m7 B7 (2x)

e|--7-7--8-8--9-9--7----4-4---4----2-4-5
B|--9----9----9----7-7--5--5--4-4--2----
G|--8----8----9----7----6-----5----2----
D|--9-----------------------------------
A|--7-----------------------------------
E|--------------------------------------
-7-4~-2~--|
----------|
----------|
----------|
----------|
----------|

e|--7-7--8-8--9-11-12-9------------4----
B|--9----9----9---------7p9-7-5~----5---
G|--8----8----9------------------6---6-5
D|--9---------------------------------6-
A|--7-----------------------------------
E|--------------------------------------
-4--2-4-5-7-4~-2~--|
4---2--------------|
----2--------------|
-------------------|
-------------------|
-------------------|

[Verse 1]
E           G#7              C#m
Watch the sunrise along the coast
         Bm7          Amaj7  G#7
As we're both getting old
         F#m7      B7         E
I can't describe what I'm feeling
          G#7                C#m
And all I know is we're going home
     Bm7               Amaj7  G#7
So please don't let me go, oh
G#7          F#m7    B7
Don't let me go, oh-oh-oh

[Chorus]
             E
And if it's right
         A        B7      E
I don't care how long it takes
                     A
As long as I'm with you
            B7          E
I've got a smile on my face
          A        B7      E   G#m C#m
Save your tears, it'll be okay
B      A              B         E G#7 
All I know is you're here with me
C#m Bm7 Amaj7 G#7 F#m7 B7

e|--7-7--8-8--9-11-12-9------------4----
B|--9----9----9---------7p9-7-5~----5---
G|--8----8----9------------------6---6-5
D|--9---------------------------------6-
A|--7-----------------------------------
E|--------------------------------------
-4--2-4-5-7-4~-2~--|
4---2--------------|
----2--------------|
-------------------|
-------------------|
-------------------|

[Verse 2]

e|--7-7--8-8--9-11-12-9------------4----
B|--9----9----9---------7p9-7-5~----5---
G|--8----8----9------------------6---6-5
D|--9---------------------------------6-
A|--7-----------------------------------
E|--------------------------------------
-4--2-4-5-7-4~-2~--|
4---2--------------|
----2--------------|
-------------------|
-------------------|
-------------------|

E            G#7 C#m      Bm7     Amaj7 
Watch the sunrise as we're getting old, 
 G#7
oh-oh
F#m7       B7         E
I can't describe, whoa-oh
 G#7          C#m                Bm7   
I wish I could live through every memory
 Amaj7
again
G#7            F#m7           B7       
Just one more time before we float off
        E
in the wind
   G#7            C#m                
And all the time we spent waiting for 
   Bm7            Amaj7   G#7
the light to take us in
              F#m7            B7    
Have been the greatest moments of my 
      E
life

[Chorus]
         A        B7      E
I don't care how long it takes
                     A
As long as I'm with you
            B7          E
I've got a smile on my face
         A        B7      E   G#m C#m B
Save your tears, it'll be okay
A
B               E G#7 C#m Bm7 Amaj7 G#7
Yeah, if with me

e|--7-7--8-8--9-9--7----4-4---4----2-4-5
B|--9----9----9----7-7--5--5--4-4--2----
G|--8----8----9----7----6-----5----2----
D|--9-----------------------------------
A|--7-----------------------------------
E|--------------------------------------
-7-4~-2~--|
----------|
----------|
----------|
----------|
----------|

F#m7     B7        E G#7 C#m Bm7 Amaj7 
I can't describe, oh, oh
G#7 F#m7 B7

e|--7-7--8-8--9-11-12-9------------4----
B|--9----9----9---------7p9-7-5~----5---
G|--8----8----9------------------6---6-5
D|--9---------------------------------6-
A|--7-----------------------------------
E|--------------------------------------
-4--2-4-5-7-4~-2~--|
4---2--------------|
----2--------------|
-------------------|
-------------------|
-------------------|

[Outro]
E G#7 C#m Bm7 Amaj7 G#7 F#m7 B7
E G#7 C#m Bm7 Amaj7 G#7 F#m7 B7
close