Chord Guitar Neon Sign - Kenshi Yonezu (米津 玄師) - Navigasi Music a -->
Skip to content Skip to sidebar Skip to footer

Chord Guitar Neon Sign - Kenshi Yonezu (米津 玄師)

Navigasi music - Gitarkid , 弦 ,chordmudah , simplechord , acorde, Kunci gitar , chord, Chord gitar, dan, Lirik Lagu, kord gitar, Akkord, navigasi.eu.org , akord, コード , 현 ,तार.

Kunci Gitar Neon Sign - Kenshi Yonezu (米津 玄師)




Kord Gitar Neon Sign - Kenshi Yonezu (米津 玄師)

[Intro]

e|--------------------------------------
B|--------------5-----------------5-----
G|----4--6--7------------4--6--7--------
D|--------------------------------------
A|--------------------------------------
E|--------------------------------------
-------------------------------------|
---------------------------5---------|
-----4--6--7------4--6--7------------|  
--7----------------------------------|
-------------------------------------|
-------------------------------------|
         (x4)



  G5 D5 C#5 A5 F#5
  A5 F#5 B5 C#5 D5             (x4)



[Verse 1]

G               A         Bm
Sagashimotometa kanjou ga doko ni mo
G                    A      Bm
mitsukarazu tohou ni kureta shougo ni
G               A     Bm
Kawacchatta futari ga wakachiau
G           A          Bm
koto nado arienai to kidzuita
G              A         Bm
Tooi ano hi no omoide ja bokura wa
G              A          Bm
tomodachi waraiatte sugoshiteita
G                A          Bm
Doushite sore ga konna ni mo
       G
chigau kotoba de utai
A                       Bm
kizutsukeatte shimau no ka


[Pre-Chorus]

Em7
Tashikameatte
Bm
chikaiatte tsuriageta no ni
F#                 Bm
kuzure ni kuzureta Baberu no Tou
Em7
Bokura wa douka kore ijou wa
Bm
kanashimanai you ni
F#
betsubetsu ni arukidashita


[Chorus]

Bm     Em7           Gmaj7       D
Baibai itsu no hi ka mata deaou ze
G       D              C#m7b5    F#
itsu ni naru no ka wa shiranai kedo
Bm        Em7       Gmaj7     D
Dou demo ii koto o torikimete ima
G          D     A7sus4     D
wakare no soba de waraiatta
G    F#     Bm       D
Kono mama yukou ano hi no omoi o
G       D       A7sus4     D
hikizurinagara sore demo ikou



  G5 D5 C#5 A5 F#5
  A5 F#5 B5 C#5 D5             (x4)



[Verse 2]
G              A        Bm
Kazoekirenai kanjou ga
          G           A              Bm
tomedonaku waite tohouni kureta yuuma ni
G          A             Bm
Riyuu ga hoshiku nattanda
           G
"dareka ga warui"tte
     A                Bm
iihanatte shimaeru you na


[Pre-Chorus]
Em7
Te o toriatte
omoiatte
Bm
yubikiri shita no ni
F#                   Bm
furikaetteshimai shio no hashira
Em7
Bokura wa douka
             Bm
kore ijou wa utagawanai you ni
F#
mou ichido yubikiri shita


[Chorus]
Bm     Em7       Gmaj7       D
Baibai konna hi mo kore de saigo da
G      D        C#m7b5    F#
douka kore ijou nanimo iu na
Bm     Em7      Gmaj7        D
Anna yubikiri wa shitakunakatta yo
G         D         A7sus4    D
sore wa boku dake kamoshiran ga
G    F#   Bm        D
Kono mama yukou ano hi no omoi o
G        D     A7sus4      D
hikizurinagara sore demo ikou


[Bridge]

e|--------------------------------------
B|----0----10---8----8-----------7----8-
G|----7----7----7----7------7----7----7-
D|----9----9----9-----------7-----------
A|--------------------------------------
E|--------------------------------------
-----------------------------|
---8-------------------------|
---7----7--------------------|          
--------7--------------------|
-----------------------------|
-----------------------------|
 (x7)

e|--------------------------------------
B|----0----10---8----8------------------
G|----7----7----7----7------6--6--6--6--
D|----9----9----9-----------7--7--7--7--
A|--------------------------7--7--7--7--
E|--------------------------5--5--5--5--
-----------------------------|
-----------------------------|
6--6---7--7--7---------------|
7--7---7--7--7---------------|
7--7---5--5--5---------------|
5--5-------------------------|

[Chorus]
Bm       Em7        Gmaj7     D
Baibai itsu no hi ka mata deaou ze
G       D           C#m7b5        F#
itsu ni naru no ka wa shiranai kedo
Bm       Em7        Gmaj7     D
Dou demo ii koto o torikimete ima
G         D       A7sus4    D
wakare no soba de waraiatta
G    F#     Bm       D
Kono mama yukou ano hi no omoi o
G        D       A7sus4   D
hikizurinagara sore demo ikou
G    F#     Bm      D
Raisei no mukou umarekawatte
G        D       A7sus4   D
deaeru toki wa yoroshiku negau



[Outro]

     Same as the intro
e|--------------------------------------
B|--------------5-----------------5-----
G|----4--6--7------------4--6--7--------
D|--------------------------------------
A|--------------------------------------
E|--------------------------------------
-------------------------------------|
---------------------------5---------|
-----4--6--7------4--6--7------------|  
--7----------------------------------|
-------------------------------------|
-------------------------------------|
         (x4)
close